Song name
# A B C D E F G H I J K L M N O P Q R S T U V W X Y Z

Blur - Weve Got A File On You tab

We've Got A File On You
Blur - Think Tank 2003

intro

e|--------------------------------|
B|--------------------------------|
G|x-xx-xx-x-xxxxx--x-xx-xx-x-xxxxx|
D|x-xx-xx-x-xxxxx--x-xx-xx-x-xxxxx|
A|x-xx-xx-x-xxxxx--4-44-44-4-44444|
E|2-22-22-2-22222--2-22-22-2-22222| listen for the proper strumming pattern, it's easy 
hear but too tricky to write down sorry lol

verse/pre chorus (when the muting sound disappears and sounds like proper chords)

e|---------------------------------|  |---------|
B|---------------------------------|  |---------|
G|---------------------------------|  |---------|
D|---------------------------------|  |---------|
A|--4-4--4--4-4--4-444-7-7-7--7----|  |-9-9-9---| on the last time before
E|--2-2--0--2-2--0-222-5-5-5--0----|  |-7-7-7---| chorus

chorus x4 (chanting "we've got a file on you")

e|--------------------------------|
B|--------------------------------|
G|--------------------------------|
D|--------------------------------|
A|--4-4--4-4-4--4-4-4-4-4-*-7-7-*-|
E|--2-2--0-2-2--0-2-2-2-0-*-5-5-*-| on the last time don't play the notes marked with asterixs


solo/fill x3

e|-------------------------------|
B|-------------------------------|
G|----2-3-3----------------------|
D|-4--------------4--------------|
A|----------------------3/4------|
E|-------------------------------|

that's pretty much it, sorry it's a bit messy but everything you need is there and is 
easy to figure out so enjoy =]
Tap to rate this tab
 
# A B C D E F G H I J K L M N O P Q R S T U V W X Y Z