Guitaretab - guitar tabs
Song name
# A B C D E F G H I J K L M N O P Q R S T U V W X Y Z

Bo Bice - Drift Away tab

1st acoustic                              2nd acoustic 
|-------------------------------------||------10----------|
|-------------------------------------||------10----------|
|---2p0----------------2p0------------||------------------|
|-------5p0-0-2p0-2-4-0---5p0-0-2p0-5*||------------------|
|-------------------------------------||------------------|
|-------------------------------------||------------------| 6 times & then drums

After drums start play 4 times

1st electric
|------------|
|------------|
|----10------|
|-10----9-10-|
|------------|
|------------|
play when 1st acoustic goes back to the 2p0 to end the riff


Chorus
       &          %         D/A       Em7        Cadd9        D/A       Em7        Cadd9
e|--5------3------2------3--------3--------2--------3--------3-|
b|--5------3------3------3--------3--------3--------3--------3-|
G|--7------5------2------0--------0--------2--------0--------0-|
D|--7------5------0------0--------2--------0--------0--------2-|
A|--5------3------0------2--------3--------0--------2--------3-|
D|--5------3------x------x--------x--------x--------x--------x-|
[ Tab from: http://www.guitaretab.com/b/bo-bice/136606.html ]
  &          %
Sinking away,
       D/A
Well I'm not worried to change
  &                %
Dreaming of you every day,
        D/A
And I tell myself that I will be okay

         Em7             Cadd9
And I canít believe I ever walked away
       D/A
I'm a take the time until I get right
                Em7           Cadd9
then Iím gonna take it back someday

Solo
|-------------------------------------|
|-------------------------------------|
|---2p0----------------2p0------------|
|-------5p0-0-2p0-2-4-0---5p0-0-2p0-5*|
|-------------------------------------|
|-------------------------------------|

2nd acoustic
|------------------------------------|
|------------------------------------|
|------2-----0-----4-------10--------|
|--2-4---0-2---3-5------10----9-10---|
|------------------------------------|
|------------------------------------|

1st Electric
|-------14-----12-----10-----8----|
|-----15-----15-----13-----11-----|
|---14-----14-----12-----10-------|
|---------------------------------|
|---------------------------------|
|---------------------------------| play twice

Repeat Chorus twice
Related for Drift Away tab