Song name
# A B C D E F G H I J K L M N O P Q R S T U V W X Y Z

Bo Bruce - Holding The Light tab

Artist: Bo Bruce
Song: Holding The Light
Album: Before I Sleep (2013)

CAPO 2

The chords in the intro and verses are arpeggiated using the following pattern.
Let all notes ring, and there's a slight delay. 

   E                   A
e--------------------------------------------|
B--------------------------------------------|
G--------4--------(4)--------4-------(4)-----|
D------2------2h4--------2-------2h4------4--|
A----2------2----------0---0---2-------------|
E--0-----------------------------------------|

   E                   A
e--------------------------------------------|
B--------------------------------------------|
G--------4--------(4)--------4-------(4)-----|
D------2------2h4--------2-------2h4-----6p4-|
A----2------2----------0---0---2-------------|
E--0-----------------------------------------|


E                            A
I can't sleep on through the night
E                          A
I don't know if we'll be alright
E                   A
I forget all that I know
E                                 A
I think you're here but I'm on my own

         E
Didn't I lose my way
            B
Holding the light
             C#m
Watching you come while they
                 A
Burn through the night
           E       
Didn't you see the fire
            B
All that we lost
           C#m
Didn't you hear me cry
             A
Hands in the dust

E                            A
I drew a map to bring you to me
E                                    A
You shut your eyes and now you can't see
E                            A
I walked away but you didn't call
E                         A
What if you don't love me anymore

B                        C#m
I know that I tried everything
    B
But we hurled the dust
               A
The ash on the wind

E (hold)                      A (hold)
I gave you up so you wouldn't say

Lead part (let ring)
e-----0----------------0-------------|
B--------0----------------0----------|
G-------------------------------1h2--|
D-------------2----------------------|
A------------------------------------|
E------------------------------------|

E (hold)                          A (hold)
That I'm not enough to get you to change

         E
Didn't I lose my way
            B
Holding the light
             C#m
Watching you come while they
                 A
Burn through the night
           E       
Didn't you see the fire
            B
All that we lost
           C#m
Didn't you hear me cry
             A
Hands in the dust
             E
Watching the walls cave in
                    B
And you're standing still
               C#m
And everyone's turning in
             A
Hands at the wheel

           E
You had my what?
           B
You had my heart
                  C#m      A
And I don't wanna love you

If you can't

e------------------------0---------|
B---------------------------0------|
G--------4--------(4)---------1h2--|
D------2------2h4------------------|
A----2------2----------------------|
E--0-------------------------------|
Tap to rate this tab
 
# A B C D E F G H I J K L M N O P Q R S T U V W X Y Z