Bo Burnham - Rant tab

Bo BBurnham - Rant
Key:- C minor

Violin part
e|--------------------------------------------------------------|
B|--------------------------------------------------------------|
G|---8--8---10-8-10--8-8---10-8-10--8-8---10-8-10--8-8--10-8-10-|
D|-10-10--10--------8-8--8---------7-7--7---------6-6--6--------|
A|--------------------------------------------------------------|
E|--------------------------------------------------------------|

Chords In this order

  Cm    D#   D#-   Ab
e|-8----6-----6----4---|
B|-8----8-----8----4---|
G|-8----8-----8----5---|
D|-10---8-----7----6---|
A|-10---6-----6----6---|
E|-8---------------4---|

Thats all folks, Votes please :P
Tap to rate this tab
 
# A B C D E F G H I J K L M N O P Q R S T U V W X Y Z