Bo Burnham - Oh Bo tab

----------------------------------------------------------------------------
			     Oh bo - Bo Burnham
----------------------------------------------------------------------------
Tuning: Standard

If you really want to play the piano intro, get a capo on the 4th fret and play this

e|-----2----2----2---4-2---4-2---4-2---4-2---4-2-0-|
B|----0----0----0----------------------------------|
G|--------4----6----2-----------4-----6------------|
D|---2---4----6----2------2----4-----6-------------| x alot
A|--2---2----4----0------2----2-----4--------------|
E|-0--------------------0--------------------------|

Oboe solo on g string (without capo)
G|-13131313131517-x3-15-13-17-15-13-12-13~-12~-10~

Synth , no capo, verse
e|-------------------------------------|
B|-------------------------------------|
G|-------------------------------------|
D|----8108---8108---10810---10810------| x alot
A|--------6-6----868-----4-4-----------|
E|-434---------------------------------|

pre chorus
e|--------------------------|
B|--------------------------|
G|--------------------------|
D|-10101010101010---56--5/8-|
A|-8-8-8-8-8-8-8---4--6-----|
E|--------------------------|

chorus same as verse
but with this on top
e|-8-6-
B|-----
G|-----

chorus end
e|-------|
B|-------|
G|-6-6-6-|
D|-6-6-6-|
A|-4-4-4-|
E|-------|

key change transition
e|------------------|
B|------------------|
G|------------------|
D|--56-5/8-7/8-7/10-|
A|-4--6---6---8-----|
E|------------------|

Now play chorus 2 frets up and solo is pritty much the oboe intro :)
have fun

************************************
Tap to rate this tab
 
# A B C D E F G H I J K L M N O P Q R S T U V W X Y Z