Song name
# A B C D E F G H I J K L M N O P Q R S T U V W X Y Z

Bo Burnham - Rehab For Fictional Characters tab

just repeat this through the song
       E        Am        E         Am
|----------------------------------------|
|---------------------------------1---1--|
|---1---1-----2---2-----1---1-----2---2--|
|---2---2-----2---2-----2---2---2----2---|
|-2----2----0----0----2----2-------------|
|----------------------------------------|

every once in a while change the Am to C     
 
       C
|-----------------|
|-----------------|
|---0---0---------|
|---2---2---------|
|-3----3----------|
|-----------------|

Tap to rate this tab
 
# A B C D E F G H I J K L M N O P Q R S T U V W X Y Z