Song name
# A B C D E F G H I J K L M N O P Q R S T U V W X Y Z

Bo Diddley - Im A Man tab

You have two options for playing this song:
1. :
|--------------------------|
|--------------------------|
|--------------------5--3--|
|--5--x--5--x--5--x--5--3--|
|--5--x--5--x--5--x--3--1--|
|--3--x--3--x--3--x--------|

0r

2. :
|------------|
|--5--3------|
|--5--3------|
|---------5--|
|------------|
|------------|
Choose one and you can play it over the whole song (I prefer the first one).

Now when I was a little boy, 
At the age of five, 
I had somethin' in my pocket, 
Keep a lot of folks alive. 

Now I'm a man, 
Made twenty-one, 
You know baby, 
We can have a lot of fun. 

I'm a man, 
I spell m-a-n...man. 

All you pretty women, 
Stand in line, 
I can make love to you baby, 
In an hour's time. 

I'm a man, 
I spell m-a-n...man. 

I goin' back down, 
To kansas to 
Bring back the second cousin, 
Little john the conqueroo. 

I'm a man, 
I spell m-a-n...man. 

The line I shoot, 
Will never miss, 
The way I make love to 'em, 
They can't resist. 

I'm a man, 
I spell m-a-n...man.
Tap to rate this tab
 
# A B C D E F G H I J K L M N O P Q R S T U V W X Y Z