Song name
# A B C D E F G H I J K L M N O P Q R S T U V W X Y Z

Bo Kaspers Orkester - En Man Du Tyckte Om tab

Har aldrig gjort en tab så ursäkta om det finns misstag men det låter då rätt, ville 
ha denna men det fanns ingen så jag testade mig fram. Här har ni i alla fall introt.

Mycket bra låt för övrigt!


Spelas två gånger

E--------------------------------------------------------------|
B--16--13--16--13----16--15--13--------------------------------|
G--------------------------------15--12----15/17--15-----------|
D-----------------------------------------------------15-------|
A--------------------------------------------------------------|
E--------------------------------------------------------------|


E--------------------------------------------------------------|
B--------------------------------------------------------------|
G--------------------------------------------------------------|
D--17--13----15--13--15/17--15--13-----------------------------|
A--------------------------------------------------------------|
E--------------------------------------------------------------|
Tap to rate this tab
# A B C D E F G H I J K L M N O P Q R S T U V W X Y Z