Song name
# A B C D E F G H I J K L M N O P Q R S T U V W X Y Z

Bo Kaspers Orkester - I Samma Bil tab

-----------------------------------------------------------------------------
                             I Samma Bil - Bo Kaspers Orkester
-----------------------------------------------------------------------------

Tabbed by: Filip Ljung
E-mail: cert_12@hotmail.com

Standard Tuning eBGDAE

This is how Bo Sundström plays the song live;
e|-------------------------------------------------------|
B|-------------------------------------------------------|
G|-------------------------------------------------------|
D|--9h11--11--11--9h11--11--11--9h11--11--11--11--11--11-|
A|--0-----0---0---0-----0---0---0-----0---0---0---0---0--|
E|-------------------------------------------------------|
    D     D   U   D     D   U   D     D   U   U   D   U

e|-------------------------------------------------------| Intro x4
B|-------------------------------------------------------|
G|--9h11--11--11--11--11--11-----------------------------| Verse x4
D|--0-----0---0---0---0---0---9h11--11--11--11--11--11---|
A|----------------------------0-----0---0---0---0---0----| Interlude x2
E|-------------------------------------------------------| 
    D     D   U   U   D   U  D     D   U   U   D   U

Although I prefer playing & singing it like this;

Intro & Verse                                            
e|-------------------------------------------------------|
B|-------------------------------------------------------|
G|-------------------------------------------------------|
D|-(9)---(9)-(9)-(9)---(9)-(9)-(9)---(9)-(9)-(9)-(9)-(9)-|
A|--9h11--11--11--9h11--11--11--9h11--11--11--11--11--11-|
E|--0-----0---0---0-----0---0---0-----0---0---0---0---0--| 
    D     D   U   D     D   U   D     D   U   U   D   U

e|-------------------------------------------------------| Intro x6
B|-------------------------------------------------------|
G|-(9)---(9)-(9)-(9)-(9)-(9)-----------------------------| Verse x4
D|--9h11--11--11--11--11--11--(9)---(9)-(9)-(9)-(9)-(9)--|
A|--0-----0---0---0---0---0----9h11--11--11--11--11--11--| Interlude x2
E|-----------------------------0-----0---0---0---0---0---|
    D     D   U   U   D   U    D     D   U   U   D   U

Chorus

  F#m D  A  E                        F#m A  D  A  E
e|-2--2--0--0----------------|     e|-2--0--2--0--0-------------|
B|-2--3--2--0----------------|     B|-2--2--3--2--0-------------|
G|-2--2--2--1----------------|     G|-2--2--2--2--1-------------|
D|-4--0--2--2----------------|     D|-4--2--0--2--2-------------|
A|-4--x--0--2----------------|     A|-4--0--x--0--2-------------|
E|-2--x--x--0----------------| x2  E|-2--x--x--x--0-------------| x1
 
*****************
| h = hammer-on |
*****************
Tap to rate this tab
# A B C D E F G H I J K L M N O P Q R S T U V W X Y Z