Song name
# A B C D E F G H I J K L M N O P Q R S T U V W X Y Z

Bo Kaspers Orkester - I Samma Bil tab

Artist: Bo Kaspers Orkester
Song: I Samma Bil
Album: HUND (2006)
Homepage: www.bokaspers.com/

Tuning: Standard


Ackord:

    Db  F#  Gb  Bbm
e---4----2---4---2----------------|
B---6----2---4---3----------------|
G---6----3---5---4----------------|
D---6----4---6---4----------------|
A---4----4---6---2----------------|
E--------2---4--------------------|


[Gitarr-Riff]:
e----------------------------------------------------|
B----------------------------------------------------|
G----------------------------------------------------|
D-------------------------2h4-4-4-4-4----------------|
A--2h4-4-2h4-4-2h4-4-4-4---------------2h4-4-4-4-----|
E----------------------------------------------------|


[El-orgel]:
e---------------------------------|
B---------------------------------|
G---------------------------------|
D---2--2-----2-----2--------2-----|
A---------4------------5-------4--|
E---------------------------------|

Order of song:

[Gitarr-Riff] x6

Db                     F#           Gb
Vi sitter i samma bil, vi sitter i samma bil
Db                     F#           Gb
Tusen r och tusen mil, vi sitter i samma bil.
Db                        F#           Gb
Om det hr r vad du vill, kan jag ka tusen till
Db                   F#           Gb
En silverfrgad bil, vi sitter i samma bil.

[Gitarr-Riff] x2

[El-orgel]
Vi sitter i samma bil, en silvergr missil
En bomb i motsatt fil, vi sitter i samma bil.
Om man somnar fr en stund, tar det slut p en sekund
Fr jag har velat d med stil, vi sitter i samma bil.

[Gitarr-Riff] x2

           Bbm                F#    Gb
Fr vi har varann, fr vi har varann
                   Bbm                   F#   Gb
Det finns dom som sger, jag tror det r sant.
               Bm                   F#           Gb
Det finns ingenting, det finns ingenting vi inte kan,
             Db
Fr vi har varann.

[Gitarr-Riff] x2

Db                       F#           Gb
Jag behver dig just nu, fr mig finns bara du
Db                     F#           Gb
Fr mig finns bara du, jag behver dig just nu.
Db                           F#            Gb
Om man somnar fr en stund, tar det slut p en sekund
Db                    F#           Gb
En silvergr missil, vi sitter i samma bil.

[Gitarr-Riff] x2

            Bbm                F#    Gb
Fr vi har varann, fr vi har varann
                   Bbm                   F#   Gb
Det finns dom som sger, jag tror det r sant
                   Bbm                   F#   Gb
Det finns ingenting, det finns ingenting vi inte kan.


            Bbm                F#    Gb
Fr vi har varann, fr vi har varann
                   Bbm                   F#   Gb
Det finns dom som sger, jag tror det r sant
                   Bbm                   F#   Gb
Det finns ingenting, det finns ingenting vi inte kan.
             Db
Fr vi har varann.


[Gitarr-Intro]
x4: Tusen r och tusen mil, vi kan ka tusen till
Tusen r och tusen mil.

---------------------------------------------

Corrections and/or comments are welcomed! :)
Tap to rate this tab
# A B C D E F G H I J K L M N O P Q R S T U V W X Y Z