Guitaretab - guitar tabs
Song name
# A B C D E F G H I J K L M N O P Q R S T U V W X Y Z

Boa - Every Heart Inuyasha Ending tab

Tabbed by: Widya Anjani (youtube account: DheUchiha), dhe_vermilion@hotmail.com


Since there're many tab requests for this song, i tried to make it..
sorry that it took me a long to make it (i had many homeworks to do TT_TT)it was my 1st 
to tab a song down. so, i'm sorry if there're some mistakes.

Every Heart-BoA

Intro:
E|-1p0-1p0--1p0-1p0--1p0---|
B|-1--1--------1---1----1--|
G|-2---------------------0-|
D|-------------------------|
A|-------------------------|
E|-------------------------|

Verse:
E|---------------|----------------|-----------------|----------|
B|----------0----|-1-------1-1-0--|---------------1-|-0-----0--|
G|-2-----2--0--0-|-2---2--------2-|-0-2-0-------0---|-----0----|
D|-3---3------0--|-2-2-2-2--------|-------3---2-----|---0------|
A|---3-----------|----------------|---------3-------|----------|
E|----------3----|----------------|-3---------------|-3--------|

E|---------------|-----------------|----------0--|----------0--|
B|----------0--0-|-1-------1-1-0-1-|-3--3--3-----|--------1----|
G|-2-----2-------|-----2---2-2-2-2-|---2---------|------2------|
D|-3---3-----0---|---2---2---------|-3-----------|----2--------|
A|---3-----------|-0---------------|-------------|--0----------|
E|----------3----|-----------------|---------3---|-------------|

E|---------------|-----------------|------------------|---------|
B|----------0--0-|-1-------1-1-0---|------2---------1-|-------0-|
G|-2-----2--0----|-----2---------2-|--0-0---------0---|-----0---|
D|-3---3-----0---|---2---2---------|--------3---2-----|---0-----|
A|---3-----------|-0---------------|----------3-------|-2-------|
E|----------3----|-----------------|-3----------------|---------|

E|---------------|------------------|-------0---------|-------0-|
B|---------------|-1--------1-1-0-1-|-3---3---3-1-3-1-|-----1---|
G|-2-----2--0--0-|------2-----------|-----------------|---0-----|
D|-3---3-----0---|----2---2---------|--0-----------3--|-2-------|
A|---3-----------|--0---------------|-----------------|---------|
E|----------3----|------------------|-3---------------|---------|

Pre chorus:
E|---------------|-----------------|-------|
B|-1-3---4--4-3--|-4---4-------1---|-------|
G|-------------5-|-------7-53---3-|--10--|
D|--------5------|---6-------------|----1--|
A|-----3---------|-----------1-----|-------|
E|---------------|-4---------------|-------|

E|---------------|-----------------|--00----------|
B|-1-3---4--4-3--|-4---4------3----|----------0----|
G|-------------5-|-------7-5--3----|--------0------|
D|--------5------|---6--------3----|------2-----2--|
A|-----3---------|------------1----|---------------|
E|---------------|-4---------------|----0----------|


Chorus [2x]:
E|--------0--3---|-1p-0--------0---|---------------|
B|-1--1-3--------|------3-1--3-----|-----1-------0-|
G|-2-----------2-|------0----------|---0-------0---|
D|--2--------3---|-------0---------|-2-------0-----|
A|-0-------------|--------------3--|-------2-------|
E|---------------|------3----------|---------------|

E|--------0--3---|-1p-0-----0-------|---------0--|
B|-1--1-3--------|------3-3---3-1-3-|-1-----1----|
G|-2-----------2-|------0-----------|-----0------|
D|--2--------3---|-------0----------|---2--------|
A|-0-------------|------------------|-3----------|
E|---------------|------3-----------|------------|

Verse:
E|---------------|----------------|-----------------|----------|
B|----------0----|-1-------1-1-0--|---------------1-|-0-----0--|
G|-2-----2--0--0-|-2---2--------2-|-0-2-0-------0---|-----0----|
D|-3---3------0--|-2-2-2-2--------|-------3---2-----|---0------|
A|---3-----------|----------------|---------3-------|----------|
E|----------3----|----------------|-3---------------|-3--------|
[ Tab from: http://www.guitaretab.com/b/boa/90387.html ]
E|---------------|-----------------|----------0--|----------0--|
B|----------0--0-|-1-------1-1-0-1-|-3--3--3-----|--------1----|
G|-2-----2-------|-----2---2-2-2-2-|---2---------|------2------|
D|-3---3-----0---|---2---2---------|-3-----------|----2--------|
A|---3-----------|-0---------------|-------------|--0----------|
E|----------3----|-----------------|---------3---|-------------|

E|---------------|-----------------|------------------|---------|
B|----------0--0-|-1-------1-1-0---|------2---------1-|-------0-|
G|-2-----2--0----|-----2---------2-|--0-0---------0---|-----0---|
D|-3---3-----0---|---2---2---------|--------3---2-----|---0-----|
A|---3-----------|-0---------------|----------3-------|-2-------|
E|----------3----|-----------------|-3----------------|---------|

E|---------------|------------------|-------0---------|-------0-|
B|---------------|-1--------1-1-0-1-|-3---3---3-1-3-1-|-----1---|
G|-2-----2--0--0-|------2-----------|-----------------|---0-----|
D|-3---3-----0---|----2---2---------|--0-----------3--|-2-------|
A|---3-----------|--0---------------|-----------------|---------|
E|----------3----|------------------|-3---------------|---------|

Pre chorus:
E|---------------|-----------------|-------|
B|-1-3---4--4-3--|-4---4-------1---|-------|
G|-------------5-|-------7-53---3-|--10--|
D|--------5------|---6-------------|----1--|
A|-----3---------|-----------1-----|-------|
E|---------------|-4---------------|-------|


E|---------------|-----------------|--00----------|
B|-1-3---4--4-3--|-4---4------3----|----------0----|
G|-------------5-|-------7-5--3----|--------0------|
D|--------5------|---6--------3----|------2-----2--|
A|-----3---------|------------1----|---------------|
E|---------------|-4---------------|----0----------|

Chorus [2x]:
E|--------0--3---|-1p-0--------0---|---------------|
B|-1--1-3--------|------3-1--3-----|-----1-------0-|
G|-2-----------2-|------0----------|---0-------0---|
D|--2--------3---|-------0---------|-2-------0-----|
A|-0-------------|--------------3--|-------2-------|
E|---------------|------3----------|---------------|

E|--------0--3---|-1p-0-----0-------|---------0--|
B|-1--1-3--------|------3-3---3-1-3-|-1-----1----|
G|-2-----------2-|------0-----------|-----0------|
D|--2--------3---|-------0----------|---2--------|
A|-0-------------|------------------|-3----------|
E|---------------|------3-----------|------------|

Bridge:
E|-----------------|----------------|-----------------|--------------|
B|---4-4-4-4-4-4-4-|-3/4/3----------|---4-4-4-4-4-4-4-|----6------4--|
G|---5-5-5-5-5-5-5-|--------3-3-5-5-|---5-5-5-5-5-5-5-|-7-8--3-3-5-5-|
D|-----------------|----------------|-----------------|--------------|
A|-3---------------|-1--------3-----|-3---------------|-5------3-----|
E|-----------------|----------------|-----------------|--------------|

E|-----------------|---------3-------|---------------|-0--0----------|
B|-----------------|-44-3-4----3-4--|---3-4-3--1-3--|-------0-1-0---|
G|-5-5-4-5--7--0-0-|-----------5-----|--5---------4--|------0-----0--|
D|-----------------|--5------------5-|---------------|-----2-------2-|
A|-3--------5------|-3------------3--|---------------|---------------|
E|-----------------|-----------------|------------3--|----0----------|

Chorus [2x]:
E|--------0--3---|-1p-0--------0---|---------------|
B|-1--1-3--------|------3-1--3-----|-----1-------0-|
G|-2-----------2-|------0----------|---0-------0---|
D|--2--------3---|-------0---------|-2-------0-----|
A|-0-------------|--------------3--|-------2-------|
E|---------------|------3----------|---------------|

E|--------0--3---|-1p-0-----0-------|---------0--|
B|-1--1-3--------|------3-3---3-1-3-|-1-----1----|
G|-2-----------2-|------0-----------|-----0------|
D|--2--------3---|-------0----------|---2--------|
A|-0-------------|------------------|-3----------|
E|---------------|------3-----------|------------|
Related for Every Heart Inuyasha Ending tab