Song name
# A B C D E F G H I J K L M N O P Q R S T U V W X Y Z

Boa - Every Heart tab

I added a little more ehh i did some of it by ear so sorry if it sucks



e|------------------------------|
B|-1-0-----1-0-----1------------|
G|-------0-------0--------------|
D|------------------------------|
A|------------------------------|
E|------------------------------|

e|------------------------------|
B|---0-----1---1-1-1-0-1-1-3-5-1|
G|-2----------------------------|
D|---0-----2--------------------|
A|-3----------------------------|
E|------------------------------|
Tap to rate this tab
# A B C D E F G H I J K L M N O P Q R S T U V W X Y Z