Song name
# A B C D E F G H I J K L M N O P Q R S T U V W X Y Z

Boards Of Canada - Hey Saturday Sun tab

Help us improve GuitareTab! Take a short survey!
E ------------------------|------------------------|------------------------|
B -----------6-------6----|-----------2-------2----|-----------4-------4----|
F#--------0-------0-------|--------0-------0-------|--------0-------0-------|
D -----6------------------|-----2------------------|-----4------------------|
A --6---------------------|--2---------------------|--4---------------------|
E ------------------------|------------------------|------------------------|

Repeat

E ||--9----8----9----9---------|--5----4----5----5---------|
B ||---------------------9-----|---------------------5-----|
F#||---------------------------|---------------------------|
D ||---------------------------|---------------------------|
A ||---------------------------|---------------------------|
E ||---------------------------|---------------------------|

--7----6----7----7---------|
---------------------7-----|
---------------------------|
---------------------------|
---------------------------|
---------------------------|
Related for Hey Saturday Sun tab