Guitaretab - guitar tabs
Song name
# A B C D E F G H I J K L M N O P Q R S T U V W X Y Z

Boards Of Canada - Remmy Kid tab

E||--------------------------------------------------|
B||--------7--2--------------7--2-----------------2--|
G||--------------3-----------------3-----------3-----|
D||-----4-----------4-----4-----------4-----4--------|
A||--------------------------------------------------|
D||--4-----------------4-----------------4-----------|


                                                   
--------------------------------------------------|
--------------7-----------------------7-----------|
--------4--6-----6--4-----------4--6-----6--4--6--|
-----6-----------------6-----6--------------------|
--------------------------------------------------|
--6-----------------------6-----------------------|


                                                   
--------------------------------------------------|
--------7--2--------------7--2-----------------2--|
--------------3-----------------3-----------3-----|
-----4-----------4-----4-----------4-----4--------|
--------------------------------------------------|
--4-----------------4-----------------4-----------|

[ Tab from: http://www.guitaretab.com/b/boards-of-canada/103714.html ]
                                                   
--------------------------------------------------|
--------------7-----------------------7-----------|
--------4--6-----6--4-----------4--6-----6--4--6--|
-----6-----------------6-----6--------------------|
--------------------------------------------------|
--6-----------------------6-----------------------|


                                                   
--------------------------------------------------|
-----------7--9--7-----------------7--9--7--------|
--------8-----------8-----------8-----------8-----|
-----9-----------------9-----9-----------------9--|
--------------------------------------------------|
--9-----------------------9-----------------------|


                                                           2x      
-----------------------------------------------------------||----||
-----------7--9--7-----7-----------------------------------||----||
--------8-----------8-----------------11--13--11----------*||----||
-----9------------------------12--13--------------13--12--*||----||
-----------------------------------------------------------||----||
--9-----------------------12-------------------------------||----||

Obscure track.
Not even worth learning.
Just bored and decided to score it.

Related for Remmy Kid tab