Song name
# A B C D E F G H I J K L M N O P Q R S T U V W X Y Z

Boards Of Canada - Dayvan Cowboy tab

-----------------------------------------------------------------------------
			     DAYVAN COWBOY - Boards of Canada
-----------------------------------------------------------------------------
Tabbed by: Daniel Bacellar
Email: dbacellar.vet@gmail.com

Hi! This is my version for this beautiful song. It's very simple and it sounds 
very nice as you would see. Hope you enjoy it!:)


Tuning:DADF#BE 

 e|-------0----------0----------0----------0----------0----------0------|
 B|-------0----------0----------0----------0----------0----------0------|
F#|-0--0--0----0--0--0----0--0--0----0--0--0----0--0--0----0--0--0------|
 D|-4--4--4----7--7--7----2--2--2----9--9--9----4--4--4----4--4--4------|
 A|-4--4--4----7--7--7----2--2--2----9--9--9----4--4--4----4--4--4------|
 D|-4--4--4----7--7--7----2--2--2----9--9--9----4--4--4----4--4--4------|

These 4 chords are repeated untill the end of the song.



************************************

| /   slide up
| \   slide down
| h   hammer-on
| p   pull-off
| ~   vibrato
| +   harmonic
| x   Mute note
| b   Bend
| pb  Pre-bend
| br  Bend release
| pbr Pre-bend release
| brb Bend release bend

************************************
Tap to rate this tab
# A B C D E F G H I J K L M N O P Q R S T U V W X Y Z