Boards Of Canada - Over The Horizon Radar tab

-----------------------------------------------------------------------------
			     Over The Horizon Radar - Boards Of Canada
-----------------------------------------------------------------------------
Tabbed by: Banana
Email: cohrne@yahoo.com

Tuning: DADGBE Capo 2nd fret



e|--------------------------0-----|
B|----3-------0-------------------|
G|-2-------2-------6-7-6-7--------|
D|--------------------------------|
A|--------------------------------|
E|-0-------5-------4-----------6--|

*repeat*
Tap to rate this tab
 
# A B C D E F G H I J K L M N O P Q R S T U V W X Y Z