Song name
# A B C D E F G H I J K L M N O P Q R S T U V W X Y Z

Boards Of Canada - Melissa Juice tab

-----------------------------------------------------------------------------
			     Melissa Juice - Boards Of Canada
-----------------------------------------------------------------------------
Tabbed by: Banana
Email: cohrne@yahoo.com

Tuning: EADGBE

*Guitar 1*
e|-------6-----6--------6---------6-----6--------6---------6-----6--------6--|
B|---------------------------------------------------------------------------|
G|----6-----6--------6---------6-----6--------6---------6-----6--------6-----|
D|-6------------------------6------------------------4-----------------------|
A|---------------------------------------------------------------------------|
E|---------------------------------------------------------------------------|

e|-------6-----6--------6---------6-----6--------6---------6-----6--------6--|
B|---------------------------------------------------------------------------|
G|----6-----6--------6---------6-----6--------6---------6-----6--------6-----|
D|-4------------------------6------------------------6-----------------------|
A|---------------------------------------------------------------------------|
E|---------------------------------------------------------------------------|

e|-------6-----6--------6---------6-----6--------8---|
B|---------------------------------------------------|
G|----6-----6--------6---------6-----6--------6------|
D|-4------------------------4------------------------|
A|---------------------------------------------------|
E|---------------------------------------------------|
*REPEAT*

______________________________________________________

*Guitar 2*

e|-8--6--3--------------4-----6--3---6-----8--6------6----|
B|----------6-----4--6---------------------------6--------|
G|--------------------------------------------------------|
D|--------------------------------------------------------|
A|--------------------------------------------------------|
E|--------------------------------------------------------|
*REPEAT*
Tap to rate this tab
 
# A B C D E F G H I J K L M N O P Q R S T U V W X Y Z