Song name
# A B C D E F G H I J K L M N O P Q R S T U V W X Y Z

Boards Of Canada - Roygbiv tab

Artist: Boards Of Canada
Album: Music Has The Right To Children (1998)
Copyright (c) M.Sandison & M.Eion

Bass line for guitar (Drop D)

e-------------------|----------------|------------------------------|
b-------------------|----------------|------------------------------|
g-------------------|----------------|------------------------------|
d----4---------2----|--------2-------|-------4-----2---2---2p0h2----|
a---2--4-2---0------|-0--2p0---2-----|---2p4-----0----------------2-|
d-4--------4-----0--|----------------|-4-------4--------------------|

Piano arrg. guitar (Standard Capo 2)

|: Am7  | G | A | G | C | G | F :|

Synth melody arrg. guitar (Standard)

e--------------|---------|--7--10----10p9-------------|
b--10--7-------|---10--7-|--------10-----10-8~~~~p7---|
g--------7--6--|--9------|--------------------------7-|
d--------------|---------|----------------------------|
a--------------|---------|----------------------------|
e--------------|---------|----------------------------|

e---------|----10--7--10-9--12-10-|-10p9----7h9----|
b---10--7-|-10--------------------|-------------10-|
g--9------|-----------------------|----------------|
d---------|-----------------------|----------------|
a---------|-----------------------|----------------|
e---------|-----------------------|----------------|

Beautiful song, there isn't a lot to it, but isn't that the beauty?

GezzyDiversion 2012
Tap to rate this tab
# A B C D E F G H I J K L M N O P Q R S T U V W X Y Z