Song name
# A B C D E F G H I J K L M N O P Q R S T U V W X Y Z

Boards Of Canada - Chromakey Dreamcoat tab

#----------------------------------PLEASE NOTE---------------------------------#
#This file is the author's own work and represents their interpretation of the #
#song. You may only use this file for private study, scholarship, or research. #
#------------------------------------------------------------------------------#


Artist: Boards of Canada
Song:   Chromakey Dreamcoat
Album:  The Campfire Headphase
Tabbed by: baileyandrew@gmail.com (Andrew Bailey)


EADGBe

Q=190

(repeated almost throughout)

|------------------|
|------------------|
|------------------|
|10----10-10----10-|
|----8--------8----|
|------------------|  x2
 q   e e  q   e e

|------------------|
|------------------|
|------------------|
|6-----6-6-----8---|
|----4-------6-----|
|------------------|  x2
 q   e e q   e e

|------------------|
|------------------|
|------------------|
|3-----3-3-----3---|
|----1-------1-----|
|------------------|  x2
 q   e e q   e e

|---|---|---|
|---|---|---|
|-7-|---|---|
|-8-|-8-|-5-|
|---|-9-|-6-|
|---|---|---|


[this is just the guitar parts in the song.
  too many other noises and effects to tab.]
Tap to rate this tab
# A B C D E F G H I J K L M N O P Q R S T U V W X Y Z