Song name
# A B C D E F G H I J K L M N O P Q R S T U V W X Y Z

Boards Of Canada - Dayvan Cowboy tab

Artist: Boards of Canada
Song:   Dayvan Cowboy
Album:  The Campfire Headphase
Tabbed by: baileyandrew@gmail.com (Andrew Bailey)




EADGBe

Q=84



INTRO
=====


Guitar 1 (lo-fi)

|---------------------------|
|---------------------------|
|---------2-------------4---|
|--4------2------2------4---|
|--4------0------2------2---|
|--2-------------0----------|


Guitar 2 (lo-fi, delay)

|----2------5------0------7-|
|---2------5------0------7--|
|--3------6------1------8---|
|-4------7------2------9----|
|---------------------------|
|---------------------------|



BODY
====


Guitar 1 (pan, envelope)

|---------------------------|
|---------------------------|
|---------2-------------4---|
|--4------2------2------4---|
|--4------0------2------2---|
|--2-------------0----------|


Guitar 2 (pan)

|-2-|
|-2-|
|-3-|
|-4-|
|---|
|---|
Tap to rate this tab
# A B C D E F G H I J K L M N O P Q R S T U V W X Y Z