Song name
# A B C D E F G H I J K L M N O P Q R S T U V W X Y Z

Boards Of Canada - Kaini Industries tab

--------------------------------------------------------------------
		BOARDS OF CANADA - KAINI INDUSTRIES
--------------------------------------------------------------------

T = 10
x = mute
/ = slide up
h = hammer on

TUNING: Dropped D

   .       .       .       .       .       .       .       .   
e|-----------------------------------------------------------------|
b|-----------------------------------------------------------------|
G|-----------------------------------------------------------------|
D|---------T-T---T---9---------------------------------5------/7---|
A|-------7-------------T-----------5~------------------------------|
D|-7-----------7---7-----7-0-0-7-5---------0-----------------------|

   .       .       .       .       .       .       .       .   
e|-----------------------------------------------------------------|
b|-----------------------------------------------------------------|
G|-------------------------------------------------5-----5---4-----|
D|-------------------5-5---5h7-7---------4-x---4-------4---4---5---|
A|-------5-7-5-7-5-------5-----------------------------------------|
D|-7---------------5---------------0---2-x-4-----------------------|

Tap to rate this tab
# A B C D E F G H I J K L M N O P Q R S T U V W X Y Z