Song name
# A B C D E F G H I J K L M N O P Q R S T U V W X Y Z

Bob Brought The House Down - Boomerang tab

Help us improve GuitareTab! Take a short survey!
#----------------------------------PLEASE NOTE--------------------------------#
#This file is the author's own work and represents their interpretation of the#
#song. You may only use this file for private study, scholarship, or research.#
#-----------------------------------------------------------------------------#
#-- File created with Instab - http://www.pconline.com/~smcarey/instab.html --#
#-----------------------------------------------------------------------------#

Author/Artist: Bob Brought The House Down
Title: Boomerang
Album: Boomerang
Email: bobbroughtthehousedown@hotmail.com

Feel free to e-mail the above address for more information!!

---0----0----0----0----0----0----0---0----------------------------------------|
----0----0----0----0----0----0----0-0-----------------------------------------|
------------------------------------------------------------------------------|
------------------------------------------------------------------------------|
------------------------------------------------------------------------------|
-0----2----5----7----9-----7---5----------------------------------------------|
 Riff 1 (x2)

------------------------------------------------------------------------------|
------------------------------------------------------------------------------|
------------------------------------------------------------------------------|
-22222-444444-777777-999999-101010101010999999-77777777777--------------------|
-22222-444444-777777-999999-101010101010999999-77777777777--------------------|
-00000-222222-555555-777777-9-9-9-9-9-9-777777-55555555555--------------------|
 Riff 2 (x2)

------------------------------------------------------------------------------|
------------------------------------------------------------------------------|
-9999999-777777777-666666666--------------------------------------------------|
-9999999-777777777-666666666--7777-9999---------------------------------------|
-7777777-555555555-444444444--7777-9999---------------------------------------|
------------------------------5555-7777---------------------------------------|
 Riff 3 (x3)

------------------------------------------------------------------------------|
-----------------565----------------------------------------------------------|
-----6-----6---6-----6--------------------------------------------------------|
---6-----6---4-------------7----7-----9----9----------------------------------|
-4-----4-----------------7-----7----9-----9-----------------------------------|
-----------------------5-----5----7-----7-------------------------------------|
  Interlude (x2)
Related for Boomerang tab