Song name
# A B C D E F G H I J K L M N O P Q R S T U V W X Y Z

Bob Dylan - Smokestack Lightning tab

Smokestack Lightning - Bob Dylan





Intro:

  :   .   .   .     :   .   .   .     :   .   .   .     :   .   .   .   .   .
|-----------------|-----------------|-----------------|-3-------0---------0-----|
|-----------------|-----------0-----|-----------------|-------------------------|
|-----------------|-------------1---|-2-----0--h1-----|-------------------------|
|-----2-------2---|-----2-----------|-----------------|-------------------------|
|-----------------|-----------------|-----------------|-------------------------|
|-0-------0-------|-0-------0-------|-0---0-------0---|-----0-------0---0---0---|

  :   .   .   .     :   .   .   .     :   .   .   .     :   .   .   .  
|-----------------|-----------0-----|-3b----0---------|---------------0-|
|-2---------------|-0---------0-----|-----------------|-----------------|
|-----------------|-------1---------|-----------0--h1-|-----1-----------|
|-----------------|-----------------|-------------2---|-----------2-----|
|-----------------|-----------------|-----------------|-----2-----------|
|-----0---0---0---|-0---0---0---0---|-0---0---0-------|-0-------0--(0)--|

                        >       >         >       >
  :   .   .   .     :   .   .   .     :   .   .   .     :   .   .   .
|-----------------|-----------------|-----------------|-----------------|
|-----------------|-----------------|-----------------|-----------------|
|---0--h1---0--h1-|-----------------|-----------------|-----------------|
|-----2-------2---|-----2-------2---|-----2-------2---|-----2-------2---|
|-----------------|-----------------|-----------------|-----------------|
|-0-------0-------|-0-------0-------|-0-------0-------|-0-------0-------|
                                                            Hard days...
Tap to rate this tab
# A B C D E F G H I J K L M N O P Q R S T U V W X Y Z