Bob Dylan - Corrina Corrina tab

Song Title: Corrina, Corrina
Artist: Bob Dylan
Album: The Freewheelin' Bob Dylan

Tabbed by Charlie Lewis - sci-fi-lullaby@hotmail.co.uk

This is quite a rough tab but a hell of a lot better than everything else I can find,
pretty much everything's there but you'll have to sort out the layout yourselves and 
improvise a bit :)

CAPO ON 1st FRET
TAB IS RELATIVE TO CAPO


INTRO:

e|-0--0--0--0-|-0--0--0--0-|
B|--0--0--0--0|--0--0--0--0|
G|1--2--1--2--|1--------2--|
D|------------|---4--2-----|
A|---0-----0--|---------0--|
E|4-----4-----|4--2--0-----|

                          |
                          |In this part slide on the
                          |G string as much as possible
                          |and hammer on the 1st fret
                          |
Corrina, Corrina,         |
|------------|------------|-4--5--4--2-|-0--2--0--2-|
|0-0-0-0-0-0-|2-2-2-4-42-2|------------|------------|
|-1-1-1-1-1-1|-2-2-2-4--2-|4-46-64-42-2|1-12-21-12-2|
|------------|------------|------------|------------|
|---0--------|---0--2--0--|------------|------------|
|4-----4--2--|0-----------|4--5--4--2-2|0--2--0--2--|
                          |
Corrina, Corrina,         |
|------------|------------|-4--5--4--2-|-0--2--0--2-|
|0-0-0-0-0-0-|2-2-2-4-42-2|------------|------------|
|-1-1-1-1-1-1|-2-2-2-4--2-|4-46-64-42-2|1-12-21-12-2|
|------------|------------|------------|------------|
|---0--------|---0--2--0--|------------|------------|
|4-----4--2--|0-----------|4--5--4--2-2|0--2--0--2--|

I've been worried 'bout you baby...
|-4-4-4-7-7-7|-5-5-5-7--5-|-4--5--7--5-|-4--2--0--2-|
|------------|------------|------------|------------|
|4-4-4-8-8-8-|6-6-6-8-86-6|4-46-67-76-6|4-42-21-12-2|
|------------|------------|------------|------------|
|2--2--------|------------|------------|------------|
|------7--7--|5--5--7--5--|4--5--7--5--|4--2--0--2--|

Rinse and repeat

Any comments or corrections greatly appreciated.
Tap to rate this tab
 
# A B C D E F G H I J K L M N O P Q R S T U V W X Y Z