Song name
# A B C D E F G H I J K L M N O P Q R S T U V W X Y Z

Bob Dylan - The Times They Are A-changin chords

Highlighted       Show chord diagrams
#----------------------------------PLEASE NOTE--------------------------------#
#This file is the author's own work and represents their interpretation of the#
#song. You may only use this file for private study, scholarship, or research.#
#-----------------------------------------------------------------------------#
#-- File created with Instab - http://www.pconline.com/~smcarey/instab.html --#
#-----------------------------------------------------------------------------#

Author/Artist: Bob Dylan
Title: Times They Are A Changin

Standard Tuning


     G                 G            D7       G                       D7
---|--------------------------------------------------------------------------|
---|-------------------6------------8--------------------------------8--------|
---|-10----------------x------------x--------10----------------------x--------|
---|-7-----------------7------------8--------7-----------------------8--------|
---|-8-----------------8------------10-------8-----------------------10-------|
---|-x-----------------x------------x--------x-----------------------x--------|
    "Come gather round people where ever you roam and admit that the waters

                            G           G              D7              G
------------------------------------------------------------------------------|
----------------------------------------6--------------8----------------------|
----------------------------10----------x--------------x---------------10-----|
----------------------------7-----------7--------------8---------------7------|
----------------------------8-----------8--------------10--------------8------|
----------------------------x-----------x--------------x---------------x------|
  around you have grown and accept that soon you'll be drenched to the bone

                  D7                          D
------------------------------------------------------------------------------|
------------------8---------------------------8-------------------------------|
------------------x---------------------------x-------------------------------|
------------------8---------------------------10------------------------------|
------------------10--------------------------10------------------------------|
------------------x---------------------------x-------------------------------|
 If your time to you is worth savin' then you better start swimming or youll


                           G                D7   G
-----------------------------------------------------------|------------------|
--------------------------------------------8--------------|------------------|
---------------------------10---------------x----10--------|------------------|
---------------------------7----------------8----7---------|------------------|
---------------------------8----------------10---8---------|------------------|
---------------------------x----------------x----x---------|------------------|
 sink like a stone for the times they are a-changin."



     G                          D7       G
Come gather 'round people where ever you roam
                   D7
And admit that the waters around you have grown
    G                             D7              G
And accept it that soon you'll be drenched to the bone
                D7
If your time to you is worth savin'
         D
Then you better start swimmin' or you'll sink like a stone
        G                D7   G
For the times they are a-changin’

     G                       D7                   G
Come writers and critics who prophesize with your pen
                   D7
And keep your eyes wide the chance won't come again
    G                            D7               G
And don't speak too soon for the wheel's still in spin
                       D7
And there's no tellin' who that it's namin'
        D
For the loser now will be later to win
        G                D7   G
For the times they are a-changin’

     G                     D7              G
Come senators, congressmen please heed the call
                   D7
don't stand in the doorway don't block up the hall
    G                         D7         G
For he that gets hurt will be he who has stalled
                    D7
There's a battle outside and it is ragin'
       D
It'll soon shake your windows and rattle your walls
        G                D7   G
For the times they are a-changin’

     G                   D7              G
Come mothers and fathers throughout the land
               D7
And don't criticize what you can't understand
     G                           D7          G
Your sons and your daughters are beyond your command
                 D7
Your old road is rapidly agin'
       D
Please get out of the new one if you can't lend your hand
        G                D7   G
For the times they are a-changin’

    G                    D7          G
The line it is drawn the curse it is cast
             D7
The slow one now will later be fast
       G                D7        G
As the present now will later be past
             D7
The order is rapidly fadin'
        D
And the first one now will later be last
        G                D7   G
For the times they are a-changin’
Tap to rate this tab
# A B C D E F G H I J K L M N O P Q R S T U V W X Y Z