Guitaretab - guitar tabs
Song name
# A B C D E F G H I J K L M N O P Q R S T U V W X Y Z

Bob Dylan - Spirit On The Water tab

Artist  : Bob Dylan
Track   : Spirit On The Water
Album   : Modern Times (2006)
I am    : Mohamed Hassan, 22, Egypt
contact : Metia_kickass@hotmail.com

Spirit on the Water

Now this is just the basic riff played in the intro and it's played 
over the verses,there's like 3 guitars I think,I just tabbed the ones 
I can hear most,A piano play the chords over the riff,so I guess you need 2 guitars to make it sound best.
[ Tab from: http://www.guitaretab.com/b/bob-dylan/78786.html ]
The timing is indicated as each measure is a 4 count,listen to the record and you'll
get it.
 
Verse :
======
  Bb            Eb       Bb                Eb   Ebm7  Bb         
|-10-8--10-8--|-6-5-6-5-|----------------|----------|---6---6-x-|
|-11-10-11-10-|-8-6-8-6-|----------------|---8----7-|---6---6-x-|
|-------------|---------|--5s7-7---------|---8----6-|---7---7-x-|
|-------------|---------|--------10-8----|---8----8-|-----------|
|-------------|---------|-------------10-|-6----6---|-----------|
|-------------|---------|----------------|----------|-6---6-----|
 Eb    F  Bb   Bb
---------|---|-6-|
-8-----6-|-6-|-6-|
-8-----5-|-7-|-7-|
-8-7-8-7-|-8-|-8-|
---------|-8-|-8-|
---------|---|---|
                  Bb
Spirit on the water
Eb                              Bb
Darkness on the face of the deep
Eb        Ebm7               Bb
   I keep thinking about you baby 
Eb      F      Bb
I can't hardly sleep 

I'm traveling by land 
Traveling through the dawn of day
You're always on my mind 
I can't stay away 

Chorus :
=======
Gm                  
I'd forgotten about you
Cm
Then you turned up again
         Gm
I always knew
     Cm
That we were meant to be more than friends
Related for Spirit On The Water tab
×
Spirit On The Water