Song name
# A B C D E F G H I J K L M N O P Q R S T U V W X Y Z

Bob Dylan - Levee Gonna Break tab

Artist  : Bob Dylan
Track   : The Leeve Gonna Break
Album   : Modern Times (2006)
I am    : Mohamed Hassan, 22, Egypt
contact : Metia_kickass@hotmail.com

again your typical 12 Bar Blues in Bb,I may add the solos in a seperate file later.
an acoustic does the strumming,while 2 electrics,one plays the slide,and the other 
does the blues sturm,that's how I play it on one guitar,I'm sure you can do better.

Main Riff:
 Bb                     Eb
|-------------------|  |------------------|  |-------------------|
|-6-6-6s9s8-6-6-6-6-|  |----6s9s8---6---6-|  |-6-6-6s9s8-6-6-6-6-|
|-7-7-------7-8-7-8-|  |-8-8------8-8-8-8-|  |-7-7-------7-8-7-8-|
|-8-8-------8-8-8-8-|  |-8-8------8-8-8-8-|  |-8-8-------8-8-8-8-|
|-------------------|  |------------------|  |-------------------|
|-------------------|x2|------------------|x1|-------------------|x1

|-------------------|  |-------------------| (Play the chord rather lightly
|-6-6-6s9s8-6-6-6-6-|  |-6-6-6s9s8-6-6-6-6-|  and accentuate the slide,if 
|-5-5-------5-5-5-5-|  |-7-7-------7-8-7-8-|  you wanna sound like the record)
|-7-7-------7-7-7-7-|  |-8-8-------8-8-8-8-|
|-------------------|  |-------------------|
|-------------------|X1|-------------------|

Bb     
If it keep on rainin' the levee gonna break
Eb                                    Bb
If it keep on rainin' the levee gonna break
F                                                  Bb
Everybody saying this is a day only The Lord could make
Tap to rate this tab
# A B C D E F G H I J K L M N O P Q R S T U V W X Y Z