Song name
# A B C D E F G H I J K L M N O P Q R S T U V W X Y Z

Bob Dylan - Down The Highway tab

Double drop D tuning: DADGBD
Capo on 5th fret (sounding key G)
Chords:
D7:   000210
G:    5x0003
A:    20222x

Riff:
D|-000000000--------------------0--|
B|-111111111--------------------3--|
G|-222222222--------------------2--|
D|-000000000-3p0----------------0--|
A|---------------3p0------------0--|
D|-------------------3---3---0--0--|

D7
Well I'm walkin' down the highway with a suitcase inmy hand
        G                               D7 (Riff)
Yes I'm walkin' down the highway with a suitcase in my hand
       A                                 D7 (Riff)
Lord I really miss my baby she's in some far-off land

Occassional embelishment:
D|-----3-0-|
B|---------|
G|---------|
D|---------|
A|---------|
D|-3-0-----|
Tap to rate this tab
# A B C D E F G H I J K L M N O P Q R S T U V W X Y Z