Song name
# A B C D E F G H I J K L M N O P Q R S T U V W X Y Z

Bob Evans - Dont You Think Its Time tab

Help us improve GuitareTab! Take a short survey!
Bob Evans - Don't you think its time
Tabbed by McT

Capo on 7th fret

Intro

    C		 Em	      Am	   Csus1       
E|----------------------------------------------------|
B|----1--1-1-1-----0--0-0-0-----1--1-1-1-----1--1-1-1-|
G|----0--0-0-0-----0--0-0-0-----2--2-2-2-----0--0-0-0-|
D|----2--2-2-2-----2--2-2-2-----2--2-2-2-----2--2-2-2-|
A|--3------------2------------0--------------3--3-3-3-|
E|-----------------------------------------3----------|

  F	   C	    G		  C
E|--------------------------------------------------------|
B|--1--1-1---1--1-1---3-3-3--3-3-3-----1---1-1-1-1--------|
G|--2--2-2---0--0-0---0-0-0--0-0-0-----0---0-0-0-0--------|
D|--3--3-3---2--2-2---0-0-0--0-0-0-----0h2-2-2-2-2--------|
A|--3--3-3---3--3-3---2-2-2--2-2-2---3---------------0--2-|
E|-------------------------------------------------3------|

Verse

     C		 Em	      Am	   Csus1        
E|-----------------------------------------------------|
B|-----1--1-1-1-----0--0-0-0-----1--1-1-1-----1--1-1-1-|
G|*----0--0-0-0-----0--0-0-0-----2--2-2-2-----0--0-0-0-|
D|*----2--2-2-2-----2--2-2-2-----2--2-2-2-----2--2-2-2-|
A|---3------------2------------0--------------3--3-3-3-|
E|-----------------------------------------3-----------|

    F	         C	      F	           C
E|-----------------------------------------------------|
B|-----1--1-1-1----1----1-1-1----1--1-1-1----1----1-1-1|
G|-----2--2-2-2----0----0-0-0----2--2-2-2----0----0-0-0|
D|-----3--3-3-3----0h2--2-2-2----3--3-3-3----0h2--2-2-2|
A|-----3--3-3-3--3---------------3--3-3-3--3-----------|
E|--1-------------------------1------------------------|


   F	       C	   G
E|---------------------------------------------------|
B|---1--1-1-1----1--1-1-1----3--3-3-3----------------|
G|---2--2-2-2----0--0-0-0----0--0-0-0--------0------*|
D|---3--3-3-3----2--2-2-2----0--0-0-0------0---0----*|
A|---3--3-3-3--3-----------------------0h2-------2---|
E|-1-----------------------3-------------------------|


Chrous

   F  	       Em	     Am		 Csus1      
E|---------------------------------------------------|
B|---1--1-1-1-----0--0-0-0-----1--1-1-1-----1--1-1-1-|
G|---2--2-2-2-----0--0-0-0-----2--2-2-2-----0--0-0-0-|
D|---3--3-3-3-----2--2-2-2-----2--2-2-2-----2--2-2-2-|
A|---3--3-3-3---2------------0--------------3--3-3-3-|
E|-1-------------------------------------3-----------|

    F	         Em	      C	            Csus9
E|-----------------------------------------------------|
B|----1--1-1-1-----0--0-0-0-----1---1-1-1-----1--1-1-1-|
G|----2--2-2-2-----0--0-0-0-----0---0-0-0-----0--0-0-0-|
D|----3--3-3-3-----2--2-2-2-----0h2-2-2-2-----2--2-2-2-|
A|----3--3-3-3---2------------3---------------3--3-3-3-|
E|--1---------------------------------------3----------|


   F		Em	     Am		 Csus1      
E|---------------------------------------------------|
B|---1--1-1-1-----0--0-0-0-----1--1-1-1-----1--1-1-1-|
G|---2--2-2-2-----0--0-0-0-----2--2-2-2-----0--0-0-0-|
D|---3--3-3-3-----2--2-2-2-----2--2-2-2-----2--2-2-2-|
A|---3--3-3-3---2------------0--------------3--3-3-3-|
E|-1-------------------------------------3-----------|

    F	     C	      G		     C
E|--------------------------------------------------------|
B|--1--1-1---1--1-1---3-3-3--3-3-3-----1---1-1-1-1--------|
G|--2--2-2---0--0-0---0-0-0--0-0-0-----0---0-0-0-0--------|
D|--3--3-3---2--2-2---0-0-0--0-0-0-----0h2-2-2-2-2--------|
A|--3--3-3---3--3-3---2-2-2--2-2-2---3---------------0--2-|
E|-------------------------------------------------3------|
Related for Dont You Think Its Time tab