Song name
# A B C D E F G H I J K L M N O P Q R S T U V W X Y Z

Bob Evans - Sore Eyes tab

Normal E Tuning - Capo on the 7th fret

Strumming is easy enough to figure out, just listen to the song.
Intro and verses are all the same, and the bridge is easy enough


Intro/Versex7 (lyrics start on third)
E|---3--33--0--2--0-----3-3----3--3------|
B|---3--33-----3-----2--3-3----3--3------|
G|---0--00-----2--------0-0----0--0------|
D|---0--00--------------2-2----2--0------|
A|---2--22--------------3-0h3--3--2------|
E|---3--33------------------------3------|

E|---------3-3-------2--2--3--3-------3--3----3--|
B|---------3-3-------3--3--3--3-------3----------|
G|---------0-0-------2--2--0--0-------0----------|
D|---------0-0-----0-------2--2----0--0----------|
A|----0-2--2-2--0----------3--0h3-----2-----2----|
E|--3------3-3------------------------3----------|

Star lights are glistening, and I'm coming Down
On a Christmas morning
Some say it's beutiful, but I've seen much more
It's a sight for sore eyes

I've lived to say so much, and I've meant to do
So many things not done
This world is weary and, I wana come home
To a sight for sore eyes


bridgex2
E|-0----0----0-----2--0-------3----3------3---------|
B|-1----1----1-----3----2-----3---------------------|
G|-2----2----2-----2----------0---------------------|
D|-2----2----2-----0----------0---------------------|
A|-0----0----0----------------2--------2------------|
E|-0----0----0----------------3---------------------|

I've got some memories, that don't make me proud
The voices of my past, speak to me so loud

x1
E|------------3--0--2--0-----3-3----3--3------|
B|------------3-----3-----2--3-3----3--3------|
G|------------0-----2--------0-0----0--0------|
D|------------0--------------2-2----2--0------|
A|-----0--2---2--------------3-0h3--3--2------|
E|---3--------3------------------------3------|

And i hope you're listening, and i'll tell you it's true

x1
E|---------3-3-------2--2--3--3-------3--3----3--|
B|---------3-3-------3--3--3--3-------3----------|
G|---------0-0-------2--2--0--0-------0----------|
D|---------0-0-----0-------2--2----0--0----------|
A|----0-2--2-2--0----------3--0h3-----2-----2----|
E|--3------3-3------------------------3----------|

You're a sight for sore eyes


Versex3(lyrics start on 2nd)
E|---3--33--0--2--0-----3-3----3--3------|
B|---3--33-----3-----2--3-3----3--3------|
G|---0--00-----2--------0-0----0--0------|
D|---0--00--------------2-2----2--0------|
A|---2--22--------------3-0h3--3--2------|
E|---3--33------------------------3------|

E|---------3-3-------2--2--3--3-------3--3----3--|
B|---------3-3-------3--3--3--3-------3----------|
G|---------0-0-------2--2--0--0-------0----------|
D|---------0-0-----0-------2--2----0--0----------|
A|----0-2--2-2--0----------3--0h3-----2-----2----|
E|--3------3-3------------------------3----------|

Star lights are glistening, and I'm coming down
On a christmas morning
Some say it's beautiful, but i've seen much more
It's a sight for sore eyes...

x1
E|---------3-3-------2--2--3--3-------3--3----3--|
B|---------3-3-------3--3--3--3-------3----------|
G|---------0-0-------2--2--0--0-------0----------|
D|---------0-0-----0-------2--2----0--0----------|
A|----0-2--2-2--0----------3--0h3-----2-----2----|
E|--3------3-3------------------------3----------|

You're a sight for sore eyes...


Outro (play last few notes slowly to fade out)
E|---3--33--0--2--0-----3-3----3--3------|
B|---3--33-----3-----2--3-3----3--3------|
G|---0--00-----2--------0-0----0--0------|
D|---0--00--------------2-2----2--0------|
A|---2--22--------------3-0h3--3--2------|
E|---3--33------------------------3------|

E|---------3-3-------2--2--3--3-------3--3----3--|
B|---------3-3-------3--3--3--3-------3----------|
G|---------0-0-------2--2--0--0-------0----------|
D|---------0-0-----0-------2--2----0--0----------|
A|----0-2--2-2--0----------3--0h3-----2-----2----|
E|--3------3-3------------------------3----------|
Tap to rate this tab
# A B C D E F G H I J K L M N O P Q R S T U V W X Y Z