Song name
# A B C D E F G H I J K L M N O P Q R S T U V W X Y Z

Bob Hund - Den Lilla Planeten tab

Tabbed by: Love April


Tuning: Standard

My first tab, the other tab on this song is not so good. This should be better

e|--0----0-------------------0----0----------------|
B|-----3----1-0-1---------------3----1-0-1----3----|
G|----------------2--4---------------------2-------|
D|-------------------------------------------------|
A|-------------------------------------------------|
E|-------------------------------------------------| 
                                                   
e|--0----0-------------------0----0-----------------------------|
B|-----3----1-0-1---------------3----1-0-1----3/12---10--12-----|
G|----------------2--4---------------------2----------------9---|
D|--------------------------------------------------------------|
A|--------------------------------------------------------------|
E|--------------------------------------------------------------|

e|-------------------0----------0------------0------0-0-0-0-0-0-|
B|--10---9--10--------------------------------------0-0-0-0-0-0-|
G|---------------7----------------------------------1-1-1-1-1-1-|
D|--------------------------------------------------2-2-2-2-2-2-|
A|--------------------------------------------------2-2-2-2-2-2-|
E|-----------------------------------0--------------0-0-0-0-0-0-|

e|--------------------------------------------------------------------------|
B|--------------------------------------------------------------------------|
G|--------------------------------------------------------------------------|
D|---7------------------------------2---------------------------------------|
A|---7----5---7---3---2---3---0--2--2---------------------------------------|
E|---5------------------------------0---------------------------------------|

........Kom igen, ge mäj en vibration


That's the song in short, later on, the notes get picked faster. Just a note. 

In the end it's played up high kind of a solo:

e|--12-12-12-12-12-12-12-12-10-12-8-8-7-8-5-5-7-7b-7r-7b-7r-7b-7r-7b-7r-----|
B|--------------------------------------------------------------------------|
G|--------------------------------------------------------------------------|
D|--------------------------------------------------------------------------|
A|--------------------------------------------------------------------------|
E|--------------------------------------------------------------------------|

And a variation with bendings on the high e notes too, ending on:

e|-10/17b-17r-17b-17r-17b-17r-19--|


Then the solo again and stop.

That's it.
Tap to rate this tab
# A B C D E F G H I J K L M N O P Q R S T U V W X Y Z