Song name
# A B C D E F G H I J K L M N O P Q R S T U V W X Y Z

Bob Hund - Den Lilla Planeten tab

Part 1:

e----7--5-7-3---3------------------|
B-------------7---5-7--------------|
G----------------------------------|
D----------------------------------|
A----------------------------------|
E----------------------------------|

Part 2:

e----7--5-7-3---3------------------|
B-------------7---5-10-------------|
G----------------------------------|
D----------------------------------|
A----------------------------------|
E----------------------------------|

Tap to rate this tab
# A B C D E F G H I J K L M N O P Q R S T U V W X Y Z