Song name
# A B C D E F G H I J K L M N O P Q R S T U V W X Y Z

Bob Hund - Jag Ar Inte Arg tab

Bob Hund - Jag är inte arg

Standard tuning: e A D G B E

Guitar 1:

e----------------------------------|
B----------------------------------|
G-----12------10-------------------|
D--10------10--------3-2----1-0----| x 4
A----------------------------------|
E----------------------------------|

Guitar 2:

e-------------------------------------8---10-8-----|
B-10-8-----10-8-------10-8--------8h10--------10-8-|
G-----9--------9-7--------9-7--7h9-----------------|
D------10---------10---------10--------------------| x 4
A--------------------------------------------------|
E--------------------------------------------------|

This is from the Bob Hund Sover Aldrig live album. This is my
 first tab, so please be understanding if it is written in a weird way :)
Tap to rate this tab
 
# A B C D E F G H I J K L M N O P Q R S T U V W X Y Z