Song name
# A B C D E F G H I J K L M N O P Q R S T U V W X Y Z

Bob Hund - Det Skulle Vara Latt For Mig Att Saga Att Jag Inte Hittar Hem tab

Play this a few times...

E|-----------------------------------------------|
B|-------10-------------------10-----------------|
G|----12----12-------------12----12--------------|
D|-10----------14-10----10----------14-12-10-----|
B|-----------------------------------------------|
E|-----------------------------------------------|

E|-----------------------------------------------|
B|----------------------------13-15-13-----------|
G|-14-12-------------------12----------14-12-----|
D|-------14-12----12-14-15-----------------------|
B|-------------15--------------------------------|
E|-----------------------------------------------|
Tap to rate this tab
# A B C D E F G H I J K L M N O P Q R S T U V W X Y Z