Song name
# A B C D E F G H I J K L M N O P Q R S T U V W X Y Z

Bob Kauflin - O Great God tab

-------------------------------------------------------------------------------
                             O Great God - Bob Kauflin
-------------------------------------------------------------------------------
Tabbed by: Christiantabber
E-mail:    fw5treehouse@hotmail.com

Tuning:    STANDARD

INTRO:
|--0-3--3---------0--0-----0-3-1p0------------|
|--3----1-----1-3----1---1-----1---3-----1-1--|
|--0----0---0---0----2-2-------2---0---0---0--|
|-------2-2-----0----2-------------0-0-----2--|
|--2----3-------2----0-------------2-------3--|
|------------------------------1--------------|

VERSE:
E|--------------------|--------------------|--------------------|--------------------|--|
B|--1--------1--3-----|--1--------1--------|--1-----3--------1--|--1--------1--------|--|
G|--0-----0-----0-----|--2-----2-----2-----|--2--------0--------|--------0-----0-----|--|
D|-----2-----------0--|-----2-----------2--|-----3--------0-----|-----2-----------2--|--|
A|--3-----------2-----|--0-----------------|--3-----2-----------|--3-----------------|--|
E|--------------------|--------------------|--------------------|--------------------|--|

E|--------------------|--------------------|--------------------|--------------------|--|
B|--1--------1--3-----|--1--------1--------|--1-----3--------1--|--1--------1--------|--|
G|--0-----0-----0-----|--2-----2-----2-----|--2--------0--------|--------0-----0-----|--|
D|-----2-----------0--|-----2-----------2--|-----3--------0-----|-----2-----------2--|--|
A|--3-----------2-----|--0-----------------|--3-----2-----------|--3-----------------|--|
E|--------------------|--------------------|--------------------|--------------------|--|

E|--------------------|--------------------|--------------------|--------------------|--|
B|--1--------1--3-----|--1--------1--------|--1--------1--------|--3--------3--------|--|
G|--2-----2-----0--0--|--------0-----0-----|--------0-----0-----|--0-----0-----0-----|--|
D|-----2--------------|--2--2-----------2--|--2--2-----------2--|-----0-----------0--|--|
A|--0-----------2-----|--3-----------------|--3-----------------|--2-----------------|--|
E|--------------------|--------------------|--------------------|--------------------|--|

E|--------------------|--------------------|--------------------|--------------------|------|
B|--1--------1--3-----|--1--------1--------|--1-----3--------1--|--1--------1--------|------|
G|--0-----0-----0-----|--2-----2-----2-----|--2--------0--------|--------0-----0-----|------|
D|-----2-----------0--|-----2-----------2--|-----3--------0-----|-----2-----------2--|------|
A|--3-----------2-----|--0-----------------|--3-----2-----------|--3-----------------|--3---|
E|--------------------|--------------------|--------------------|--------------------|------|

VERSE 1
 O great God of highest heaven
 Occupy my lowly heart
 Own it all and reign supreme
 Conquer every rebel power
 Let no vice or sin remain
 That resists Your holy war
 You have loved and purchased me
 Make me Yours forevermore

 VERSE 2
 I was blinded by my sin
 Had no ears to hear Your voice
 Did not know Your love within
 Had no taste for heavenís joys
 Then Your Spirit gave me life
 Opened up Your Word to me
 Through the gospel of Your Son
 Gave me endless hope and peace

 VERSE 3
 Help me now to live a life
 Thatís dependent on Your grace
 Keep my heart and guard my soul
 From the evils that I face
 You are worthy to be praised
 With my every thought and deed
 O great God of highest heaven
 Glorify Your Name through me
Tap to rate this tab
# A B C D E F G H I J K L M N O P Q R S T U V W X Y Z