Song name
# A B C D E F G H I J K L M N O P Q R S T U V W X Y Z

Bob Marley - War tab

----------------------------------------------------------------------------
			     WAR - Bob Marley
----------------------------------------------------------------------------
Tabbed by:BIGBOPPA

Tuning:Standard

I suggest using wah for this song especially. Then again I do use a 
crybaby for almost all reggae. Here I think the low tones are a product 
of the pedal. 

               A#m       G#          

         e|----9----9----8----8----|
         B|----11---11---9----9----|
         G|----10---10---8----8----|
         D|----11---11---10---10---|
         A|------------------------|
         E|------------------------|
Tap to rate this tab
# A B C D E F G H I J K L M N O P Q R S T U V W X Y Z