Song name
# A B C D E F G H I J K L M N O P Q R S T U V W X Y Z

Bob Marley - Could You Be Loved tab

Could you be Loved - Marley and such.


Guitar 1: Intro

|-----------------------------------------------------|
|-----------------------------------------------------|
|-----------------------------------------------------|
|-----------------------------------------------------|
|---2-2--2--2-2--2--4--5--4-2-2--2--2-2--2--4--5--4---|
|-----------------------------------------------------|

Guitar 2:
|---7----7----7----7-----------------------|
|---7----7----7----7-----------------------|
|---7----7----7----7-----------------------|
|------------------------------------------|
|------------------------------------------|
|------------------------------------------|


Guitar 1: Chorus
|-----------------------------------------------------|
|-----------------------------------------------------|
|-----------------------------------------------------|
|---0-0--0--0-0--0--2--4--2---------------------------|
|---------------------------2-2--2--2-2--2--4--5--4---|
|-----------------------------------------------------|

|---------------------------------------------------------|
|---------------------------------------------------------|
|---------------------------------------------------------|
|-------------------------------0-0--0--0-0--0--2--4--2---|
|---------------------------------------------------------|
|---3-3--3-3-3--3-3-3--3-3-3--3---------------------------|

Guitar 2:
|---10----10----10----10----10----10----10----10-------|
|---10----10----10----10----12----12----12----12-------|
|---11----11----11----11----11----11----11----11-------|
|------------------------------------------------------|
|------------------------------------------------------|
|------------------------------------------------------|

|---10----10----10----10----10----10----10----10-------|
|---12----12----12----12----10----10----10----10-------|
|---12----12----12----12----11----11----11----11-------|
|------------------------------------------------------|
|------------------------------------------------------|
|------------------------------------------------------|

Stuff between choruses: Guitar 1
|-----------------------------------------------------|
|-----------------------------------------------------|
|-----------------------------------------------------|
|-----------------------------------------------------|
|---2-2--2--2-2--2--4--5--4-2-2--2--2-2--2--4--5--4---|
|-----------------------------------------------------|

|----------------------------------------------------------|
|----------------------------------------------------------|
|----------------------------------------------------------|
|---2--2--2--(0)h2-0--0-2p0----2--2--2--(0)h2-0--0-2p0-----|
|---------------------------2--------------------------2---|
|----------------------------------------------------------|

|-----------------------------------------------------|
|-----------------------------------------------------|
|-----------------------------------------------------|
|-----------------------------------------------------|
|---2-2--2--2-2--2--4--5--4-2-2--2--2-2--2--4--5--4---|
|-----------------------------------------------------|

|------------------------------------------------------|
|------------------------------------------------------|
|------------------------------------------------------|
|---5-5--5--5-5-4-4--4--4-4-2--2--2--2--2-0--0-2p0-----|
|--------------------------------------------------2---|
|------------------------------------------------------|

|-----------------------------------------------------|
|-----------------------------------------------------|
|-----------------------------------------------------|
|-----------------------------------------------------|
|---2-2--2--2-2--2--4--5--4-2-2--2--2-2--2--4--5--4---|
|-----------------------------------------------------|

|-----------------------------------------------------------|
|-----------------------------------------------------------|
|-----------------------------------------------------------|
|---5-5--5--5-5-4-4--4--4-4-(4)/7-7--7--7-7--7-7-7--7-7-7---|
|-----------------------------------------------------------|
|-----------------------------------------------------------|

Stuff between choruses: Guitar 2
|---7----7----7----7----7----7----7----7---|
|---7----7----7----7----7----7----7----7---|
|---7----7----7----7----7----7----7----7---|
|------------------------------------------|
|------------------------------------------|
|------------------------------------------|

|---7----7----7----7----7----7----7----7---|
|---8----8----8----8----8----8----8----8---|
|---9----9----9----9----9----9----9----9---|
|------------------------------------------|
|------------------------------------------|
|------------------------------------------|

|---10----10----10----10----9----9----9----9----7----7----7----7---|
|---12----12----12----12----10---10---10---10---8----8----8----8---|
|---12----12----12----12----11---11---11---11---9----9----9----9---|
|------------------------------------------------------------------|
|------------------------------------------------------------------|
|------------------------------------------------------------------|

|---7----7----7----7----7----7----7----7---|
|---7----7----7----7----7----7----7----7---|
|---7----7----7----7----7----7----7----7---|
|------------------------------------------|
|------------------------------------------|
|------------------------------------------|

|---10----10----10----10----9----9----9----9----12----12----12----12---|
|---12----12----12----12----10---10---10---10---14----14----14----14---|
|---12----12----12----12----11---11---11---11---14----14----14----14---|
|----------------------------------------------------------------------|
|----------------------------------------------------------------------|
|----------------------------------------------------------------------|


Other between-choruses bit: guitar 1
|-------------------------------------------------------|
|-------------------------------------------------------|
|-------------------------------------------------------|
|-------------------------------------------------------|
|---2-2--2--2-2--2--4--5--4--2-2--2--2-2--(0)h2p0-------|
|-------------------------------------------------2-2---|

guitar 2:
|---7----7----7----7----7----7----7----7---|
|---7----7----7----7----7----7----7----7---|
|---7----7----7----7----7----7----7----7---|
|------------------------------------------|
|------------------------------------------|
|------------------------------------------|

~fin~
Tap to rate this tab
# A B C D E F G H I J K L M N O P Q R S T U V W X Y Z