Guitaretab - guitar tabs
Song name
# A B C D E F G H I J K L M N O P Q R S T U V W X Y Z

Bob Marley - No Woman No Cry tab

NO WOMAN NO CRY
LIVE VERSION
BOB MARLEY & THE WAILERS
GUITAR SOLO
TABS BY: MAURICIO R.

Hmmmm... ok this is the first time sharing tabs, so i think this tab is  99.9% correct 
so), its based on a GP tab but i just change some things that sound wrong.... so enjoy 
tabs, cool song... Bob Marley rulz!

h= hammer on
p= pull off
/= slide
b= bend
br= bend release
v= vibrato
( )= ghost note

(-------------------------------13-15----------------------------------8-)
(---------------------13-15bv---------15b-13v------------------------8---)
(---------------12-14---------------------------14--12--------/9--10-----)
(-------10v-/14----------------------------------------14/10-------------)
(12/10-------------------------------------------------------------------)
(------------------------------------------------------------------------)

                               (      let ring        )
(-8----------------------8-----------------------------------------------)
(-8h10--8h10p8----8v-----8h10---8----10----11----10----13----------------)
(--------------10--------------------------------------------------------)
(---------------------------------10----10----10----10-------(12)/14-----)
(---------------------------------------------------------15---------15v-)
(------------------------------------------------------------------------)


(------------------------------------------------------------------------)
(----------------------------------------------13-15-13-13v--------------)
(-------------------------------------12-14-12---------------------------)
(---------------10----10-12/14v------------------------------------------)
(-10---10-10/12----12----------------------------------------------------)
(------------------------------------------------------------------------)

[ Tab from: http://www.guitaretab.com/b/bob-marley/182991.html ]
(--------------15--------------------------------------------------------)
(-------13-15b----15br---13-13------8------------------------------------)
(-14-12---------------------12br----7br-5---7brbrbrbrbrbr--8b--7br5---5v-)
(-----------------------------------------7-------------------------7----)
(------------------------------------------------------------------------)
(------------------------------------------------------------------------)

(let ring)          (let ring)
(-------5------------------5---------------------------------------------)
(-----5---8p5---5--------5---8p5---5-------------------------------------)
(-7b----------7---5--7b----------7---5---------------------------5v------)
(------------------------------------5h7---5-----------------5-7---------)
(--------------------------------------------7/5-3-------5/7-------------)
(--------------------------------------------------5-3-3-----------------)


(-5--------------------------------8-------------------------------------)
(-5h6--5h6p5----5------------------8-8-----------------------------------)
(-------------7---5---5--------------7br--5---5-5v-----------------------)
(-------------------7-5h7p5-----------------7----------------------------)
(------------------------------------------------------------------------)
(------------------------------------------------------------------------)

 (        let ring        )
(---------------------------------8--------------------------------------)
(---------------------------------8h10--8----8---------------------------)
(-----5------(7)---------9v---------------10---8b------------------------)
(-------------------------------------------------10v--------------------)
(-5/7----7/8------8-8/10-------------------------------------------------)
(------------------------------------------------------------------------)


(------------------------------------------------------------------------)
(-8-------------8h10p8v--------------------------------------------------)
(---9h10p9---------------------------------------------------------------)
(----------10------------------------------------------------------------)
(------------------------------------------------------------------------)
(------------------------------------------------------------------------)
END OF SOLO.
Related for No Woman No Cry tab
No Woman No Cry chords by Bob Marley