Song name
# A B C D E F G H I J K L M N O P Q R S T U V W X Y Z

Bob Marley - I Shot The Sheriff chords

Highlighted       Show chord diagrams
Fm                  Cm
I shot the sheriff
                      Fm
But I didn't shoot no deputy, oh no! Oh!
Fm                  Cm
I shot the sheriff
                      Fm
But I didn't shoot no deputy, ooh, ooh, oo-ooh.)


D#  Dm           Fm
All around in my home town,
D#                Dm       Fm
They're tryin' to track me down;
D#                    Dm          Fm
They say they want to bring me in guilty
        D#           Dm   Fm
For the killing of a deputy,
        D#        Dm   Fm
For the life of a deputy.
But I say:

e|------------------------------------------------------------------------------------|
B|------------------------------------------------------------------------------------|
G|------------------------------------------------------------------------------------|
D|-5-3--------------------------------------------------------------------------------|
A|-----5-3-1-3-5-3-1------------------------------------------------------------------|
E|--------------------3---------------------------------------------------------------|

Fm                 Cm
I shot the sheriff
                      Fm
but I swear it was in self-defense.
Fm                 Cm
I shot the sheriff
                     Fm
and they say it is a capital offense.

D#      Dm                Fm
Sheriff john brown always hated me;
    D#  Dm      Fm      D#
For what   I dont know.
      Dm          Fm
Every time that I plant a seed
         D#      Dm        Fm
He said, kill it before it grows.
         D#      Dm        Fm
He said, kill it before it grows.
I say:


e|------------------------------------------------------------------------------------|
B|------------------------------------------------------------------------------------|
G|------------------------------------------------------------------------------------|
D|-5-3--------------------------------------------------------------------------------|
A|-----5-3-1-3-5-3-1------------------------------------------------------------------|
E|--------------------3---------------------------------------------------------------|


basically it goes like this for the rest of the song hope you'll like this.
it's a great song.
Tap to rate this tab
 
# A B C D E F G H I J K L M N O P Q R S T U V W X Y Z