Song name
# A B C D E F G H I J K L M N O P Q R S T U V W X Y Z

Bob Marley - If The Cap Fits tab

This one is played in the typical reggea/ska upbeat rythm, with some variations,
listen to the song, it helps.
I think the name of the song is Who The Cap Fit, but anyway

Intro + First verse

 A# (might be a A#maj7)    Cdom7/G
e-6--6--6--6--6--6--6--6--8--8--8--8--8--8--8--8-----|
b-6--6--6--6--6--6--6--6--8--8--8--8--8--8--8--8-----|
d-7--7--7--7--7--7--7--7--8--8--8--8--8--8--8--8-----| x3
g-8--8--8--8--8--8--8--8--8--8--8--8--8--8--8--8-----|
A-8--8--8--8--8--8--8--8--10-10-10-10-10-10-10-10----|
E----------------------------------------------------|

Bridge
e-6-6-6-6-8--8--8--8-----|
b-8-8-8-8-10-10-10-10----|
d-8-8-8-8-10-10-10-10----| x4
g-8-8-8-8-10-10-10-10----|
A-6-6-6-6-8--8--8--8-----|
E------------------------|

Chorus
e-10-10-10-10-6-6-6-6--|
b-11-11-11-11-8-8-8-8--|
d-12-12-12-12-8-8-8-8--| x4
g-12-12-12-12-8-8-8-8--|
A-10-10-10-10-6-6-6-6--|
E----------------------|

Second Verse
e-6--6--6--6--6--6--6--6--8--8--8--8--8--8--8--8-----|
b-6--6--6--6--6--6--6--6--8--8--8--8--8--8--8--8-----|
d-7--7--7--7--7--7--7--7--8--8--8--8--8--8--8--8-----| x2
g-8--8--8--8--8--8--8--8--8--8--8--8--8--8--8--8-----|
A-8--8--8--8--8--8--8--8--10-10-10-10-10-10-10-10----|
E----------------------------------------------------|

Bridge
e-6-6-6-6-8--8--8--8-----|
b-8-8-8-8-10-10-10-10----|
d-8-8-8-8-10-10-10-10----| x4
g-8-8-8-8-10-10-10-10----|
A-6-6-6-6-8--8--8--8-----|
E------------------------|

Chorus
e-10-10-10-10-6-6-6-6--|
b-11-11-11-11-8-8-8-8--|
d-12-12-12-12-8-8-8-8--| x4
g-12-12-12-12-8-8-8-8--|
A-10-10-10-10-6-6-6-6--|
E----------------------|


e-6--6--6--6--6--6--6--6--8--8--8--8--8--8--8--8-----|
b-6--6--6--6--6--6--6--6--8--8--8--8--8--8--8--8-----|
d-7--7--7--7--7--7--7--7--8--8--8--8--8--8--8--8-----| x2
g-8--8--8--8--8--8--8--8--8--8--8--8--8--8--8--8-----|
A-8--8--8--8--8--8--8--8--10-10-10-10-10-10-10-10----|
E----------------------------------------------------|

Bridge
e-6-6-6-6-8--8--8--8-----|
b-8-8-8-8-10-10-10-10----|
d-8-8-8-8-10-10-10-10----| x4
g-8-8-8-8-10-10-10-10----|
A-6-6-6-6-8--8--8--8-----|
E------------------------|

Chorus
e-10-10-10-10-6-6-6-6--|
b-11-11-11-11-8-8-8-8--|
d-12-12-12-12-8-8-8-8--| x repeat till fade out
g-12-12-12-12-8-8-8-8--|
A-10-10-10-10-6-6-6-6--|
E----------------------|
Tap to rate this tab
# A B C D E F G H I J K L M N O P Q R S T U V W X Y Z