Song name
# A B C D E F G H I J K L M N O P Q R S T U V W X Y Z

Bob Marley - Smoke Two Joints tab

   Ok i learned this in 5 mins you should be able to play it soon standard uning its a 
feel to it just listen to the song toget the timing down and let me know if this 
helps  hatley_steven@yahoo.com

e|---------------------------|
b|---------------------------|
g|---------------------------|
d|---7--3/5/7----------------|                 7
a|---7--3/5/7----------------|                 7
E|---5--1/3/5----------------|repeat the first 5 5times then the little solo is

e|------5---------------------------------------------|
b|--------8--5---5-----------13-10-12--13-13-12-10----|
g|---7^--------7----7--5-5----------------------------|
d|-------------------------7--------------------------|
a|----------------------------------------------------|
E|----------------------------------------------------|
/=slide up and strum  ^=bend
then it goes back to the main riff its a simple bout awesome song
Tap to rate this tab
# A B C D E F G H I J K L M N O P Q R S T U V W X Y Z