Song name
# A B C D E F G H I J K L M N O P Q R S T U V W X Y Z

Bob Marley - Redemption Song chords

Highlighted       Show chord diagrams
Redemption Song
Solo Acoustic version

INTRO Play 2x:
   G       G   A   Em7     G         C           E   D   C   Em7 A
e|---------------------------------|---------------------------------|
B|---------------------------------|---------------------------------|
G|---------------------------------|---------------------------------|   
D|---------------------------------|-------------2---0---------------|
A|-------------0---2---------------|-3-------------------3---2---0---|
E|-3-------3---------------3-------|---------------------------------|

   G       G   A       Em7           C   Em7 A        G
e|---------------------------------|---------------------------------|
B|---------------------------------|---------------------------------|
G|---------------------0-----------|---------------------------------|   
D|---------------------0-----------|---------------------------------|
A|-------------0---0h2-2-------2---|h3---2---0-----------------------|
E|-3-------3-----------------------|------------------3--------------|  


VERSE 1:
    G                     Em7
Old pirates, yes, they rob I
     C        G/B      Am 
sold I to the merchant ships
G	                Em      
   Minutes after they took I
C           G/B        Am6
   from the bottomless pit.
       G        Em7
But my hand was made strong
C         G/B	      Am
   by the hand of the Almighty.
   G                   Em
We forward in this generation
C	       Am6
   Triumphantly.


CHORUS:
                     G      
Won't you help to sing
C          D           G
   Another song of freedom
       C     D         Em 
'Cause all I ever have,
C    D           G
   Redemption songs,
C    D           G     		C    D
   Redemption songs.


BRIDGE Play 4X:

E E A E   A E   C C   D D

E E A E A   E   C C   D D


VERSE 2:
Emancipate yourself from mental slavery,
None but ourselves can free our mind.
Have no fear for atomic energy,
'Cause none of them can stop the time.
How long shall they kill our prophets,
While we stand aside and look?
Some say it's just a part of it,
We've got to fulfill the Book.

(CHORUS)


OUTRO:

Em(II)          C C    D D



Chords used:
     G       Em7     C        G/B      Am       Am6     Em      D      Em(II)

e|---3------------------------3-----------------3---------------2------7-------|
B|-------------------1-----------------1--------1---------------3------8-------|
G|-------------------------------------2--------2---------------2------7-------|
D|-------------------2-----------------2--------2--------2-------------9-------|
A|---2-------2-------3--------2-----------------x--------2------x------7-------|
E|---3---------------x-----------------x--------x---------------x------x-------|

Tap to rate this tab
# A B C D E F G H I J K L M N O P Q R S T U V W X Y Z