Song name
# A B C D E F G H I J K L M N O P Q R S T U V W X Y Z

Bob Marley - One Love chords

Highlighted       Show chord diagrams
One Love By Bob Marley

Pretty easy song and its really fun to play.

Tuning: Standard
Email: gaeterodrigo@yahoo.com

Intro

Piano plays this as an intro.
                    
		   \ this little riff is an          /
                     octave higher in the song
e|-13-13------------15--13--11-10-11-10-11-13--11-10------------|
B|-11-11---13--13-----------------------------------------------|
G|---------10--10-----------------------------------------------|
D|--------------------------------------------------------------|
A|--------------------------------------------------------------|
E|--------------------------------------------------------------|


Rythm Guitar plays these chords at the same time as the piano intro:

     Bb   F     Eb   Bb  F  Bb
e|---6----8-----6----6---8---6--------|
B|---6----10----8----6---10--6--------|
G|---7----10----8----7---10--7--------|
D|---8----10----8----8---10--8--------|
A|---8----8-----6----8---8---8--------|
E|---6---------------6-------6--------|



Chorus

Play the same thing as the intro:

     Bb   F     Eb   Bb  F  Bb
e|---6----8-----6----6---8---6--------|
B|---6----10----8----6---10--6--------|
G|---7----10----8----7---10--7--------|
D|---8----10----8----8---10--8--------|
A|---8----8-----6----8---8---8--------|
E|---6---------------6-------6--------|

After you play this twice through  play the last 4 chords again
when Bob sings "Lets get together and feel alright" for the last time.


Verse

    Bb  Gm   Eb  Bb      Bb  Gm   Eb F   Bb
e|--6---10---6---6-------6---10---6--8---6--------------|
B|--6---11---8---6-------6---11---8--10--6--------------|
G|--7---12---8---7-------7---12---8--10--7--------------|
D|--8---12---8---8-------8---12---8--10--8--------------|
A|--8---10---6---8-------8---10---6--8---8--------------|
E|--6------------6-------6---------------6--------------|



Play the Choruses and Verses again like this and you're done :D
Tap to rate this tab
# A B C D E F G H I J K L M N O P Q R S T U V W X Y Z