Song name
# A B C D E F G H I J K L M N O P Q R S T U V W X Y Z

Bob Marley - Three Little Birds tab

The melody is the tab and the chords are above the tab. Thanks
 C      C         C        C
e------------3----------------|
A--1--3--1-----5--3--1--------|
D-----------------------------|
G-----------------------------|
B-----------------------------|
E-----------------------------|
X2

THEN...
      F               F
e-------------9----------------|
A--7--9--7-----11--9--7--------|
D------------------------------|
G------------------------------|
B------------------------------|
E------------------------------|
 Keep repeating till the end of the song.
Tap to rate this tab
 
# A B C D E F G H I J K L M N O P Q R S T U V W X Y Z