Song name
# A B C D E F G H I J K L M N O P Q R S T U V W X Y Z

Bob Marley - Cheer Up tab

Band - Bob Marley
Song - Cheer Up
Tabbed By: SumFX (Tyler Freear)

Amazing Bob Marley Song From The Early Years!

Tuning - Standard
Ska Strumming

Chorus/Main Riff
  Bb      Gm
|--6------3---|
|--6------3---|
|--7------3---|
|--8------5---|
|--8------5---|
|--6------3---|

Lead Riff
Plays All Way Through Song
|---------------------|
|---------------------|
|---------------------|
|---------------------|
|-----8-5-------------|
|--6-------1/3-33333--|

Verse
Appears At 0.40 and 1.27
   Bb     Gm     Bb     F
|--6------3------6------1---|
|--6------3------6------1---|
|--7------3------7------2---|
|--8------5------8------3---|
|--8------5------8------3---|
|--6------3------6------1---|
Tap to rate this tab
# A B C D E F G H I J K L M N O P Q R S T U V W X Y Z