Song name
# A B C D E F G H I J K L M N O P Q R S T U V W X Y Z

Bob Marley - Redemption Song tab

This is the version from a video I found on youtube that I couldn't find anywhere, so a 
of mine (Fred Martins) started to study Bob Marley's movements in the video and tried to 
and this came out of it and I think it's awesome ( http://www.youtube.com/watch?v=OFGgbT_VasI )

h --> hammer on

-----------------------------------------------|
-------------2-0-----------------0-------------|
-----0-2---3-----3-2-0-----0-0h2---2-3-2-0-----|
-3-3-----3-------------3-3-----------------3---|

-----------------------------------------------|
-------------0h2-0-----------------0-----------|
-----0-2---3-------3-2-0-----0-0h2---2-3-2-0---|
-3-3-----3---------------3-3-----------------3-|

A special thanks to Fred that did all of the work, and to Henrshy to put that video on youtube.

Gui
Tap to rate this tab
 
# A B C D E F G H I J K L M N O P Q R S T U V W X Y Z