Song name
# A B C D E F G H I J K L M N O P Q R S T U V W X Y Z

Bob Marley - Redemption Song tab

E|-----------------------------------------------------------------------|
B|-----------------------------------------------------------------------|
G|-----------------------------------------------------------------------|
D|---------------------------1/2---0-------------------0-----------------|
A|-------0--1/2------2/3---------------2--------0--2-------2--3--2--0----|
E|---3-----------3-------------------------3---------------------------3-|


E|-----------------------------------------------------------------------|
B|-----------------------------------------------------------------------|
G|-----------------------------------------------------------------------|
D|---------------------------1/2---0-------------------0-----------------|
A|-------0--1/2------2/3---------------2--------0--2-------3--2--0-------|
E|---3-----------3-------------------------3---------------------------3-|
Tap to rate this tab
# A B C D E F G H I J K L M N O P Q R S T U V W X Y Z