Song name
# A B C D E F G H I J K L M N O P Q R S T U V W X Y Z

Bob Marley - Guava Jelly tab

-------------------------------------------------------------------------------
                             Guava Jelly intro - Bob Marley
-------------------------------------------------------------------------------
Tabbed by:Me

Tuning:standard

e|-------------------------------------------------------------------|
B|-0h1-0h1--------------------------0h1-0h1--------------------------|
G|---------4--0---------------0-2-4---------4--0--------------0-2-4--|
D|--------------2---0---0-2-3--------------------2---0--0-2-3--------|
A|----------------3--------------------------------3-----------------|
E|-------------------------------------------------------------------|


| h   hammer-on
Tap to rate this tab
# A B C D E F G H I J K L M N O P Q R S T U V W X Y Z