Song name
# A B C D E F G H I J K L M N O P Q R S T U V W X Y Z

Bob Marley - Want More tab

Bob Marley
Want More
Tabed by Robert M (acdcdoors5@aol.com) I love you jill

e-------------------------------------------------------|
B-------------------------------------------------------|
G-------7~~~-----------7~~~------7--9--9b--9b--9-7------|
D-9-9---------9--7--9---------9--------------------9~~--|
A-------------------------------------------------------|
E-------------------------------------------------------|

 repeat this twice    then repeat this twice  then repeat the whole thing
e-x-x-x-x--7--7-------x-x-x-x---7--7--------------------|
B-x-x-x-x--7--7-------x-x-x-x---8--8--------------------|
G-x-x-x-x--7--7-------x-x-x-x---9--9--------------------|
D-x-x-x-x--9--9-------x-x-x-x---9--9--------------------|
A-------------------------------------------------------|
E-------------------------------------------------------|

e-7----7----7----7----7----7----7----7------------------|
B-7----7----7----7----8----8----8----8------------------|
G-7----7----7----7----9----9----9----9------------------|
D-9----9----9----9----9----9----9----9------------------|
A-------------------------------------------------------|
E-------------------------------------------------------|

and questions email me
Tap to rate this tab
 
# A B C D E F G H I J K L M N O P Q R S T U V W X Y Z