Song name
# A B C D E F G H I J K L M N O P Q R S T U V W X Y Z

Bob Marley - Hammer tab

Bob Marley - Hammer

Standart Tuning / Accordage Standart


Intro :

e --4---------------|---4--------------|--6---------------|-----6----------|
B -------6----------|-------6----------|--------8---------|-----------8----|
G ------------5-----|------------5-----|-------------7----|----------------|
D ------------------|------------------|------------------|----------------|
A ------------------|------------------|------------------|----------------|
E ------------------|------------------|------------------|----------------|


e --4---------------|---4--------------|--6---------------|-----6----------|
B -------6----------|-------6----------|--------8---------|---------8------|
G ------------5-----|------------5-----|-------------7----|------------7---|
D ------------------|------------------|------------------|----------------|
A ------------------|------------------|------------------|----------------|
E ------------------|------------------|------------------|----------------|

And all the song use only these two chords / Toute la chanson n'utilise que ces deux 
:

e ----(4)---------|      e |-------6---------|
B -----6----------|      B |-------8---------|
G -----5----------|      G |-------7---------|
D -----6----------|      D |------(8)--------|
A ----------------|      A |-----------------|
E ----------------|      E |-----------------|

This song is easy to play, but less funny without the bass / Cette chanson est facile  
mais moins amusante sans la basse... >_<

                                                                xXSadakoXx
Tap to rate this tab
# A B C D E F G H I J K L M N O P Q R S T U V W X Y Z